ISO-10303-21;
HEADER;
/* Generated by software containing ST-Developer
 * from STEP Tools, Inc. (www.steptools.com) 
 */
/* OPTION: using custom renumber hook */

FILE_DESCRIPTION(
/* description */ ('STEP AP242',
'CAx-IF Rec.Pracs.---Representation and Presentation of Product Manufa
cturing Information (PMI)---4.0---2014-10-13',
'CAx-IF Rec.Pracs.---3D Tessellated Geometry---0.4---2014-09-14','2;1'),

/* implementation_level */ '2;1');

FILE_NAME(
/* name */ '6336e098f64b733695f33312',
/* time_stamp */ '2022-09-30T12:27:05+00:00',
/* author */ (''),
/* organization */ (''),
/* preprocessor_version */ 'ST-DEVELOPER v18.102',
/* originating_system */ '  ',
/* authorisation */ '  ');

FILE_SCHEMA (('AP242_MANAGED_MODEL_BASED_3D_ENGINEERING_MIM_LF { 1 0 10303 442 1 1 4 }'));
ENDSEC;

DATA;
#10=SHAPE_REPRESENTATION_RELATIONSHIP('','',#286,#11);
#11=ADVANCED_BREP_SHAPE_REPRESENTATION('',(#284),#462);
#12=CYLINDRICAL_SURFACE('',#302,0.002);
#13=CYLINDRICAL_SURFACE('',#305,0.002);
#14=CYLINDRICAL_SURFACE('',#308,0.002);
#15=CIRCLE('',#294,0.002);
#16=CIRCLE('',#297,0.002);
#17=CIRCLE('',#298,0.002);
#18=CIRCLE('',#303,0.002);
#19=CIRCLE('',#306,0.002);
#20=CIRCLE('',#309,0.002);
#21=ORIENTED_EDGE('',*,*,#87,.F.);
#22=ORIENTED_EDGE('',*,*,#88,.T.);
#23=ORIENTED_EDGE('',*,*,#89,.T.);
#24=ORIENTED_EDGE('',*,*,#90,.F.);
#25=ORIENTED_EDGE('',*,*,#91,.F.);
#26=ORIENTED_EDGE('',*,*,#92,.T.);
#27=ORIENTED_EDGE('',*,*,#87,.T.);
#28=ORIENTED_EDGE('',*,*,#93,.F.);
#29=ORIENTED_EDGE('',*,*,#94,.F.);
#30=ORIENTED_EDGE('',*,*,#95,.T.);
#31=ORIENTED_EDGE('',*,*,#91,.T.);
#32=ORIENTED_EDGE('',*,*,#96,.F.);
#33=ORIENTED_EDGE('',*,*,#97,.F.);
#34=ORIENTED_EDGE('',*,*,#98,.T.);
#35=ORIENTED_EDGE('',*,*,#94,.T.);
#36=ORIENTED_EDGE('',*,*,#99,.F.);
#37=ORIENTED_EDGE('',*,*,#100,.F.);
#38=ORIENTED_EDGE('',*,*,#101,.T.);
#39=ORIENTED_EDGE('',*,*,#102,.T.);
#40=ORIENTED_EDGE('',*,*,#97,.T.);
#41=ORIENTED_EDGE('',*,*,#103,.F.);
#42=ORIENTED_EDGE('',*,*,#104,.T.);
#43=ORIENTED_EDGE('',*,*,#105,.T.);
#44=ORIENTED_EDGE('',*,*,#106,.T.);
#45=ORIENTED_EDGE('',*,*,#107,.T.);
#46=ORIENTED_EDGE('',*,*,#103,.T.);
#47=ORIENTED_EDGE('',*,*,#99,.T.);
#48=ORIENTED_EDGE('',*,*,#96,.T.);
#49=ORIENTED_EDGE('',*,*,#93,.T.);
#50=ORIENTED_EDGE('',*,*,#90,.T.);
#51=ORIENTED_EDGE('',*,*,#108,.F.);
#52=ORIENTED_EDGE('',*,*,#109,.T.);
#53=ORIENTED_EDGE('',*,*,#100,.T.);
#54=ORIENTED_EDGE('',*,*,#107,.F.);
#55=ORIENTED_EDGE('',*,*,#110,.F.);
#56=ORIENTED_EDGE('',*,*,#111,.F.);
#57=ORIENTED_EDGE('',*,*,#89,.F.);
#58=ORIENTED_EDGE('',*,*,#112,.T.);
#59=ORIENTED_EDGE('',*,*,#113,.T.);
#60=ORIENTED_EDGE('',*,*,#105,.F.);
#61=ORIENTED_EDGE('',*,*,#114,.T.);
#62=ORIENTED_EDGE('',*,*,#115,.T.);
#63=ORIENTED_EDGE('',*,*,#108,.T.);
#64=ORIENTED_EDGE('',*,*,#106,.F.);
#65=ORIENTED_EDGE('',*,*,#113,.F.);
#66=ORIENTED_EDGE('',*,*,#102,.F.);
#67=ORIENTED_EDGE('',*,*,#116,.T.);
#68=ORIENTED_EDGE('',*,*,#114,.F.);
#69=ORIENTED_EDGE('',*,*,#112,.F.);
#70=ORIENTED_EDGE('',*,*,#88,.F.);
#71=ORIENTED_EDGE('',*,*,#92,.F.);
#72=ORIENTED_EDGE('',*,*,#95,.F.);
#73=ORIENTED_EDGE('',*,*,#98,.F.);
#74=ORIENTED_EDGE('',*,*,#115,.F.);
#75=ORIENTED_EDGE('',*,*,#116,.F.);
#76=ORIENTED_EDGE('',*,*,#101,.F.);
#77=ORIENTED_EDGE('',*,*,#109,.F.);
#78=ORIENTED_EDGE('',*,*,#117,.F.);
#79=ORIENTED_EDGE('',*,*,#111,.T.);
#80=ORIENTED_EDGE('',*,*,#117,.T.);
#81=ORIENTED_EDGE('',*,*,#118,.F.);
#82=ORIENTED_EDGE('',*,*,#110,.T.);
#83=ORIENTED_EDGE('',*,*,#118,.T.);
#84=ORIENTED_EDGE('',*,*,#119,.T.);
#85=ORIENTED_EDGE('',*,*,#104,.F.);
#86=ORIENTED_EDGE('',*,*,#119,.F.);
#87=EDGE_CURVE('',#120,#121,#144,.T.);
#88=EDGE_CURVE('',#120,#122,#145,.T.);
#89=EDGE_CURVE('',#122,#123,#146,.T.);
#90=EDGE_CURVE('',#121,#123,#147,.T.);
#91=EDGE_CURVE('',#124,#125,#148,.T.);
#92=EDGE_CURVE('',#124,#120,#149,.T.);
#93=EDGE_CURVE('',#125,#121,#150,.T.);
#94=EDGE_CURVE('',#126,#127,#151,.T.);
#95=EDGE_CURVE('',#126,#124,#152,.T.);
#96=EDGE_CURVE('',#127,#125,#153,.T.);
#97=EDGE_CURVE('',#128,#129,#154,.T.);
#98=EDGE_CURVE('',#128,#126,#155,.T.);
#99=EDGE_CURVE('',#129,#127,#156,.T.);
#100=EDGE_CURVE('',#130,#131,#157,.T.);
#101=EDGE_CURVE('',#130,#132,#158,.F.);
#102=EDGE_CURVE('',#132,#128,#159,.T.);
#103=EDGE_CURVE('',#131,#129,#160,.T.);
#104=EDGE_CURVE('',#133,#133,#15,.T.);
#105=EDGE_CURVE('',#123,#134,#161,.T.);
#106=EDGE_CURVE('',#134,#135,#162,.F.);
#107=EDGE_CURVE('',#135,#131,#163,.T.);
#108=EDGE_CURVE('',#136,#135,#164,.T.);
#109=EDGE_CURVE('',#136,#130,#165,.T.);
#110=EDGE_CURVE('',#137,#137,#16,.T.);
#111=EDGE_CURVE('',#138,#138,#17,.T.);
#112=EDGE_CURVE('',#122,#139,#166,.T.);
#113=EDGE_CURVE('',#139,#134,#167,.T.);
#114=EDGE_CURVE('',#139,#140,#168,.T.);
#115=EDGE_CURVE('',#140,#136,#169,.F.);
#116=EDGE_CURVE('',#132,#140,#170,.T.);
#117=EDGE_CURVE('',#141,#141,#18,.T.);
#118=EDGE_CURVE('',#142,#142,#19,.T.);
#119=EDGE_CURVE('',#143,#143,#20,.T.);
#120=VERTEX_POINT('',#389);
#121=VERTEX_POINT('',#390);
#122=VERTEX_POINT('',#392);
#123=VERTEX_POINT('',#394);
#124=VERTEX_POINT('',#398);
#125=VERTEX_POINT('',#399);
#126=VERTEX_POINT('',#404);
#127=VERTEX_POINT('',#405);
#128=VERTEX_POINT('',#410);
#129=VERTEX_POINT('',#411);
#130=VERTEX_POINT('',#416);
#131=VERTEX_POINT('',#417);
#132=VERTEX_POINT('',#419);
#133=VERTEX_POINT('',#424);
#134=VERTEX_POINT('',#426);
#135=VERTEX_POINT('',#428);
#136=VERTEX_POINT('',#432);
#137=VERTEX_POINT('',#436);
#138=VERTEX_POINT('',#438);
#139=VERTEX_POINT('',#440);
#140=VERTEX_POINT('',#444);
#141=VERTEX_POINT('',#451);
#142=VERTEX_POINT('',#455);
#143=VERTEX_POINT('',#459);
#144=LINE('',#388,#171);
#145=LINE('',#391,#172);
#146=LINE('',#393,#173);
#147=LINE('',#395,#174);
#148=LINE('',#397,#175);
#149=LINE('',#400,#176);
#150=LINE('',#401,#177);
#151=LINE('',#403,#178);
#152=LINE('',#406,#179);
#153=LINE('',#407,#180);
#154=LINE('',#409,#181);
#155=LINE('',#412,#182);
#156=LINE('',#413,#183);
#157=LINE('',#415,#184);
#158=LINE('',#418,#185);
#159=LINE('',#420,#186);
#160=LINE('',#421,#187);
#161=LINE('',#425,#188);
#162=LINE('',#427,#189);
#163=LINE('',#429,#190);
#164=LINE('',#431,#191);
#165=LINE('',#433,#192);
#166=LINE('',#439,#193);
#167=LINE('',#441,#194);
#168=LINE('',#443,#195);
#169=LINE('',#445,#196);
#170=LINE('',#447,#197);
#171=VECTOR('',#315,1.);
#172=VECTOR('',#316,1.);
#173=VECTOR('',#317,1.);
#174=VECTOR('',#318,1.);
#175=VECTOR('',#321,1.);
#176=VECTOR('',#322,1.);
#177=VECTOR('',#323,1.);
#178=VECTOR('',#326,1.);
#179=VECTOR('',#327,1.);
#180=VECTOR('',#328,1.);
#181=VECTOR('',#331,1.);
#182=VECTOR('',#332,1.);
#183=VECTOR('',#333,1.);
#184=VECTOR('',#336,1.);
#185=VECTOR('',#337,1.);
#186=VECTOR('',#338,1.);
#187=VECTOR('',#339,1.);
#188=VECTOR('',#344,1.);
#189=VECTOR('',#345,1.);
#190=VECTOR('',#346,1.);
#191=VECTOR('',#349,1.);
#192=VECTOR('',#350,1.);
#193=VECTOR('',#357,1.);
#194=VECTOR('',#358,1.);
#195=VECTOR('',#361,1.);
#196=VECTOR('',#362,1.);
#197=VECTOR('',#365,1.);
#198=EDGE_LOOP('',(#21,#22,#23,#24));
#199=EDGE_LOOP('',(#25,#26,#27,#28));
#200=EDGE_LOOP('',(#29,#30,#31,#32));
#201=EDGE_LOOP('',(#33,#34,#35,#36));
#202=EDGE_LOOP('',(#37,#38,#39,#40,#41));
#203=EDGE_LOOP('',(#42));
#204=EDGE_LOOP('',(#43,#44,#45,#46,#47,#48,#49,#50));
#205=EDGE_LOOP('',(#51,#52,#53,#54));
#206=EDGE_LOOP('',(#55));
#207=EDGE_LOOP('',(#56));
#208=EDGE_LOOP('',(#57,#58,#59,#60));
#209=EDGE_LOOP('',(#61,#62,#63,#64,#65));
#210=EDGE_LOOP('',(#66,#67,#68,#69,#70,#71,#72,#73));
#211=EDGE_LOOP('',(#74,#75,#76,#77));
#212=EDGE_LOOP('',(#78));
#213=EDGE_LOOP('',(#79));
#214=EDGE_LOOP('',(#80));
#215=EDGE_LOOP('',(#81));
#216=EDGE_LOOP('',(#82));
#217=EDGE_LOOP('',(#83));
#218=EDGE_LOOP('',(#84));
#219=EDGE_LOOP('',(#85));
#220=EDGE_LOOP('',(#86));
#221=FACE_BOUND('',#198,.T.);
#222=FACE_BOUND('',#199,.T.);
#223=FACE_BOUND('',#200,.T.);
#224=FACE_BOUND('',#201,.T.);
#225=FACE_BOUND('',#202,.T.);
#226=FACE_BOUND('',#203,.T.);
#227=FACE_BOUND('',#204,.T.);
#228=FACE_BOUND('',#205,.T.);
#229=FACE_BOUND('',#206,.T.);
#230=FACE_BOUND('',#207,.T.);
#231=FACE_BOUND('',#208,.T.);
#232=FACE_BOUND('',#209,.T.);
#233=FACE_BOUND('',#210,.T.);
#234=FACE_BOUND('',#211,.T.);
#235=FACE_BOUND('',#212,.T.);
#236=FACE_BOUND('',#213,.T.);
#237=FACE_BOUND('',#214,.T.);
#238=FACE_BOUND('',#215,.T.);
#239=FACE_BOUND('',#216,.T.);
#240=FACE_BOUND('',#217,.T.);
#241=FACE_BOUND('',#218,.T.);
#242=FACE_BOUND('',#219,.T.);
#243=FACE_BOUND('',#220,.T.);
#244=PLANE('',#288);
#245=PLANE('',#289);
#246=PLANE('',#290);
#247=PLANE('',#291);
#248=PLANE('',#292);
#249=PLANE('',#293);
#250=PLANE('',#295);
#251=PLANE('',#296);
#252=PLANE('',#299);
#253=PLANE('',#300);
#254=PLANE('',#301);
#255=PLANE('',#304);
#256=PLANE('',#307);
#257=PLANE('',#310);
#258=ADVANCED_FACE('',(#221),#244,.T.);
#259=ADVANCED_FACE('',(#222),#245,.T.);
#260=ADVANCED_FACE('',(#223),#246,.T.);
#261=ADVANCED_FACE('',(#224),#247,.T.);
#262=ADVANCED_FACE('',(#225),#248,.T.);
#263=ADVANCED_FACE('',(#226,#227),#249,.F.);
#264=ADVANCED_FACE('',(#228),#250,.T.);
#265=ADVANCED_FACE('',(#229,#230,#231),#251,.T.);
#266=ADVANCED_FACE('',(#232),#252,.T.);
#267=ADVANCED_FACE('',(#233),#253,.T.);
#268=ADVANCED_FACE('',(#234),#254,.F.);
#269=ADVANCED_FACE('',(#235,#236),#12,.F.);
#270=ADVANCED_FACE('',(#237),#255,.T.);
#271=ADVANCED_FACE('',(#238,#239),#13,.F.);
#272=ADVANCED_FACE('',(#240),#256,.T.);
#273=ADVANCED_FACE('',(#241,#242),#14,.F.);
#274=ADVANCED_FACE('',(#243),#257,.F.);
#275=CLOSED_SHELL('',(#258,#259,#260,#261,#262,#263,#264,#265,#266,#267,
#268,#269,#270,#271,#272,#273,#274));
#276=STYLED_ITEM('',(#277),#284);
#277=PRESENTATION_STYLE_ASSIGNMENT((#278));
#278=SURFACE_STYLE_USAGE(.BOTH.,#279);
#279=SURFACE_SIDE_STYLE('',(#280));
#280=SURFACE_STYLE_FILL_AREA(#281);
#281=FILL_AREA_STYLE('',(#282));
#282=FILL_AREA_STYLE_COLOUR('',#283);
#283=COLOUR_RGB('',0.498039215686275,0.498039215686275,0.498039215686275);
#284=MANIFOLD_SOLID_BREP('Part 39',#275);
#285=SHAPE_DEFINITION_REPRESENTATION(#467,#286);
#286=SHAPE_REPRESENTATION('Part 39',(#287),#462);
#287=AXIS2_PLACEMENT_3D('',#386,#311,#312);
#288=AXIS2_PLACEMENT_3D('',#387,#313,#314);
#289=AXIS2_PLACEMENT_3D('',#396,#319,#320);
#290=AXIS2_PLACEMENT_3D('',#402,#324,#325);
#291=AXIS2_PLACEMENT_3D('',#408,#329,#330);
#292=AXIS2_PLACEMENT_3D('',#414,#334,#335);
#293=AXIS2_PLACEMENT_3D('',#422,#340,#341);
#294=AXIS2_PLACEMENT_3D('',#423,#342,#343);
#295=AXIS2_PLACEMENT_3D('',#430,#347,#348);
#296=AXIS2_PLACEMENT_3D('',#434,#351,#352);
#297=AXIS2_PLACEMENT_3D('',#435,#353,#354);
#298=AXIS2_PLACEMENT_3D('',#437,#355,#356);
#299=AXIS2_PLACEMENT_3D('',#442,#359,#360);
#300=AXIS2_PLACEMENT_3D('',#446,#363,#364);
#301=AXIS2_PLACEMENT_3D('',#448,#366,#367);
#302=AXIS2_PLACEMENT_3D('',#449,#368,#369);
#303=AXIS2_PLACEMENT_3D('',#450,#370,#371);
#304=AXIS2_PLACEMENT_3D('',#452,#372,#373);
#305=AXIS2_PLACEMENT_3D('',#453,#374,#375);
#306=AXIS2_PLACEMENT_3D('',#454,#376,#377);
#307=AXIS2_PLACEMENT_3D('',#456,#378,#379);
#308=AXIS2_PLACEMENT_3D('',#457,#380,#381);
#309=AXIS2_PLACEMENT_3D('',#458,#382,#383);
#310=AXIS2_PLACEMENT_3D('',#460,#384,#385);
#311=DIRECTION('',(0.,0.,1.));
#312=DIRECTION('',(1.,0.,0.));
#313=DIRECTION('',(0.85275695345724,-5.04327791010112E-17,-0.522307934393426));
#314=DIRECTION('',(-0.522307934393426,0.,-0.85275695345724));
#315=DIRECTION('',(-1.10141173077892E-16,-1.,-8.32667268468867E-17));
#316=DIRECTION('',(0.522307934393426,-1.2853388891229E-16,0.85275695345724));
#317=DIRECTION('',(-1.10141173077892E-16,-1.,-8.32667268468867E-17));
#318=DIRECTION('',(0.522307934393426,-1.2853388891229E-16,0.85275695345724));
#319=DIRECTION('',(9.12805736290965E-33,8.32667268468867E-17,-1.));
#320=DIRECTION('',(0.,1.,8.32667268468867E-17));
#321=DIRECTION('',(-1.10141173077892E-16,-1.,-8.32667268468867E-17));
#322=DIRECTION('',(1.,-1.10141173077892E-16,-4.30376103628878E-35));
#323=DIRECTION('',(1.,-1.10141173077892E-16,-4.30376103628891E-35));
#324=DIRECTION('',(1.,-1.10141173077892E-16,-9.55322393049223E-33));
#325=DIRECTION('',(1.10141173077892E-16,1.,0.));
#326=DIRECTION('',(-1.10141173077892E-16,-1.,-8.32667268468867E-17));
#327=DIRECTION('',(3.82128957219689E-34,-8.32667268468867E-17,1.));
#328=DIRECTION('',(3.82128957219689E-34,-8.32667268468867E-17,1.));
#329=DIRECTION('',(9.02779661431512E-33,8.32667268468867E-17,-1.));
#330=DIRECTION('',(0.,1.,8.32667268468867E-17));
#331=DIRECTION('',(-1.10141173077892E-16,-1.,-8.32667268468867E-17));
#332=DIRECTION('',(1.,-1.10141173077892E-16,-1.43298358957425E-34));
#333=DIRECTION('',(1.,-1.10141173077892E-16,-1.43298358957427E-34));
#334=DIRECTION('',(1.,-1.10141173077892E-16,-2.8848909395171E-16));
#335=DIRECTION('',(-2.8848909395171E-16,0.,-1.));
#336=DIRECTION('',(-1.10141173077892E-16,-1.,-8.32667268468867E-17));
#337=DIRECTION('',(-2.81874165002837E-16,-0.707106781186548,-0.707106781186548));
#338=DIRECTION('',(2.8848909395171E-16,-8.32667268468867E-17,1.));
#339=DIRECTION('',(2.8848909395171E-16,-8.32667268468867E-17,1.));
#340=DIRECTION('',(1.10141173077892E-16,1.,8.32667268468867E-17));
#341=DIRECTION('',(-1.,1.10141173077892E-16,9.17109497327254E-33));
#342=DIRECTION('',(1.10141173077892E-16,1.,8.32667268468867E-17));
#343=DIRECTION('',(-1.,1.10141173077892E-16,0.));
#344=DIRECTION('',(-1.,1.10141173077892E-16,-3.38628043406095E-16));
#345=DIRECTION('',(-2.15972270322082E-16,0.,1.));
#346=DIRECTION('',(1.,1.11549480748456E-65,-1.33966453315232E-49));
#347=DIRECTION('',(-1.33966453315232E-49,8.32667268468867E-17,-1.));
#348=DIRECTION('',(0.,1.,8.32667268468867E-17));
#349=DIRECTION('',(-1.10141173077892E-16,-1.,-8.32667268468867E-17));
#350=DIRECTION('',(1.,-1.10141173077892E-16,-9.17109497327254E-33));
#351=DIRECTION('',(-3.38628043406095E-16,-8.32667268468866E-17,1.));
#352=DIRECTION('',(1.,0.,3.38628043406095E-16));
#353=DIRECTION('',(-3.38628043406095E-16,-8.32667268468866E-17,1.));
#354=DIRECTION('',(1.,0.,3.38628043406095E-16));
#355=DIRECTION('',(-3.38628043406095E-16,-8.32667268468866E-17,1.));
#356=DIRECTION('',(1.,0.,3.38628043406095E-16));
#357=DIRECTION('',(-1.,1.10141173077892E-16,-3.38628043406095E-16));
#358=DIRECTION('',(-1.10141173077892E-16,-1.,-8.32667268468867E-17));
#359=DIRECTION('',(-1.,1.10141173077892E-16,-2.15972270322082E-16));
#360=DIRECTION('',(-2.15972270322082E-16,0.,1.));
#361=DIRECTION('',(2.15972270322082E-16,8.32667268468867E-17,-1.));
#362=DIRECTION('',(-7.48338865217798E-17,0.707106781186548,0.707106781186548));
#363=DIRECTION('',(1.10141173077892E-16,1.,8.32667268468867E-17));
#364=DIRECTION('',(-1.,1.10141173077892E-16,0.));
#365=DIRECTION('',(-1.,1.10141173077892E-16,9.17109497327254E-33));
#366=DIRECTION('',(-7.7881570371219E-17,-0.707106781186548,0.707106781186548));
#367=DIRECTION('',(1.,-1.10141173077892E-16,-9.17109497327254E-33));
#368=DIRECTION('',(-3.38628043406095E-16,-8.32667268468866E-17,1.));
#369=DIRECTION('',(1.,0.,3.38628043406095E-16));
#370=DIRECTION('',(-3.38628043406095E-16,-8.32667268468866E-17,1.));
#371=DIRECTION('',(1.,0.,3.38628043406095E-16));
#372=DIRECTION('',(-3.38628043406095E-16,-8.32667268468866E-17,1.));
#373=DIRECTION('',(1.,-2.81964487929909E-32,3.38628043406095E-16));
#374=DIRECTION('',(-3.38628043406095E-16,-8.32667268468866E-17,1.));
#375=DIRECTION('',(1.,0.,3.38628043406095E-16));
#376=DIRECTION('',(-3.38628043406095E-16,-8.32667268468866E-17,1.));
#377=DIRECTION('',(1.,0.,3.38628043406095E-16));
#378=DIRECTION('',(-3.38628043406095E-16,-8.32667268468866E-17,1.));
#379=DIRECTION('',(1.,-2.81964487929909E-32,3.38628043406095E-16));
#380=DIRECTION('',(-1.10141173077892E-16,-1.,-8.32667268468867E-17));
#381=DIRECTION('',(1.,-1.10141173077892E-16,0.));
#382=DIRECTION('',(1.10141173077892E-16,1.,8.32667268468867E-17));
#383=DIRECTION('',(-1.,1.10141173077892E-16,0.));
#384=DIRECTION('',(1.10141173077892E-16,1.,8.32667268468867E-17));
#385=DIRECTION('',(-1.,1.10141173077892E-16,9.17109497327254E-33));
#386=CARTESIAN_POINT('',(0.,0.,0.));
#387=CARTESIAN_POINT('',(0.0104874745472957,0.020002,-0.0993640219153808));
#388=CARTESIAN_POINT('',(0.00365682624396121,0.020002,-0.110516222473188));
#389=CARTESIAN_POINT('',(0.00365682624396121,0.02,-0.110516222473188));
#390=CARTESIAN_POINT('',(0.00365682624396121,0.000373518060542229,-0.110516222473188));
#391=CARTESIAN_POINT('',(0.0104874745472957,0.02,-0.0993640219153808));
#392=CARTESIAN_POINT('',(0.0173181228506303,0.02,-0.0882118213575737));
#393=CARTESIAN_POINT('',(0.0173181228506303,0.020002,-0.0882118213575737));
#394=CARTESIAN_POINT('',(0.0173181228506303,0.000373518060542226,-0.0882118213575737));
#395=CARTESIAN_POINT('',(0.0104874745472957,0.000373518060542227,-0.0993640219153808));
#396=CARTESIAN_POINT('',(-0.0215630868780194,0.020002,-0.110516222473188));
#397=CARTESIAN_POINT('',(-0.046783,0.020002,-0.110516222473188));
#398=CARTESIAN_POINT('',(-0.046783,0.02,-0.110516222473188));
#399=CARTESIAN_POINT('',(-0.046783,0.000373518060542235,-0.110516222473188));
#400=CARTESIAN_POINT('',(-0.0215630868780194,0.02,-0.110516222473188));
#401=CARTESIAN_POINT('',(-0.0215630868780194,0.000373518060542232,-0.110516222473188));
#402=CARTESIAN_POINT('',(-0.046783,0.020002,-0.113016222473188));
#403=CARTESIAN_POINT('',(-0.046783,0.020002,-0.115516222473188));
#404=CARTESIAN_POINT('',(-0.046783,0.02,-0.115516222473188));
#405=CARTESIAN_POINT('',(-0.046783,0.000373518060542235,-0.115516222473188));
#406=CARTESIAN_POINT('',(-0.046783,0.02,-0.113016222473188));
#407=CARTESIAN_POINT('',(-0.046783,0.000373518060542235,-0.113016222473188));
#408=CARTESIAN_POINT('',(-0.050283,0.020002,-0.115516222473188));
#409=CARTESIAN_POINT('',(-0.053783,0.020002,-0.115516222473188));
#410=CARTESIAN_POINT('',(-0.053783,0.02,-0.115516222473188));
#411=CARTESIAN_POINT('',(-0.053783,0.000373518060542235,-0.115516222473188));
#412=CARTESIAN_POINT('',(-0.050283,0.02,-0.115516222473188));
#413=CARTESIAN_POINT('',(-0.050283,0.000373518060542235,-0.115516222473188));
#414=CARTESIAN_POINT('',(-0.053783,0.020002,-0.163621291603244));
#415=CARTESIAN_POINT('',(-0.053783,0.020002,-0.211726355071724));
#416=CARTESIAN_POINT('',(-0.053783,0.000374000000000044,-0.211726355071724));
#417=CARTESIAN_POINT('',(-0.053783,0.000373518060542244,-0.211726355071724));
#418=CARTESIAN_POINT('',(-0.053783,0.0342405317342398,-0.177859823337484));
#419=CARTESIAN_POINT('',(-0.053783,0.02,-0.192100355071724));
#420=CARTESIAN_POINT('',(-0.053783,0.02,-0.163621291603244));
#421=CARTESIAN_POINT('',(-0.053783,0.000373518060542239,-0.163621291603244));
#422=CARTESIAN_POINT('',(-0.0290959385746849,0.000373518060542235,-0.149969088214649));
#423=CARTESIAN_POINT('',(-0.0646465,0.000373518060542244,-0.203741521892876));
#424=CARTESIAN_POINT('',(-0.0666465,0.000373518060542244,-0.203741521892876));
#425=CARTESIAN_POINT('',(-0.0125099678148363,0.000373518060542228,-0.0882118213575737));
#426=CARTESIAN_POINT('',(-0.07551,0.000373518060542239,-0.0882118213575737));
#427=CARTESIAN_POINT('',(-0.07551,0.000373518060542241,-0.147469088214649));
#428=CARTESIAN_POINT('',(-0.07551,0.000373518060542246,-0.211726355071724));
#429=CARTESIAN_POINT('',(-0.05701,0.000373518060542245,-0.211726355071724));
#430=CARTESIAN_POINT('',(-0.05701,0.020002,-0.211726355071724));
#431=CARTESIAN_POINT('',(-0.07551,0.020002,-0.211726355071724));
#432=CARTESIAN_POINT('',(-0.07551,0.000374000000000048,-0.211726355071724));
#433=CARTESIAN_POINT('',(-0.05701,0.000374000000000044,-0.211726355071724));
#434=CARTESIAN_POINT('',(-0.0125099678148363,0.020002,-0.0882118213575737));
#435=CARTESIAN_POINT('',(-0.0689099678148363,0.0134,-0.0882118213575737));
#436=CARTESIAN_POINT('',(-0.0669099678148363,0.0134,-0.0882118213575737));
#437=CARTESIAN_POINT('',(0.0107181228506303,0.0134,-0.0882118213575737));
#438=CARTESIAN_POINT('',(0.0127181228506303,0.0134,-0.0882118213575737));
#439=CARTESIAN_POINT('',(-0.0125099678148363,0.02,-0.0882118213575737));
#440=CARTESIAN_POINT('',(-0.07551,0.02,-0.0882118213575737));
#441=CARTESIAN_POINT('',(-0.07551,0.020002,-0.0882118213575737));
#442=CARTESIAN_POINT('',(-0.07551,0.020002,-0.147469088214649));
#443=CARTESIAN_POINT('',(-0.07551,0.02,-0.147469088214649));
#444=CARTESIAN_POINT('',(-0.07551,0.02,-0.192100355071724));
#445=CARTESIAN_POINT('',(-0.07551,0.0423166334285376,-0.169783721643187));
#446=CARTESIAN_POINT('',(-0.0125099678148363,0.02,-0.0832118213575737));
#447=CARTESIAN_POINT('',(-0.0125099678148363,0.02,-0.192100355071724));
#448=CARTESIAN_POINT('',(-0.05701,0.000374000000000044,-0.211726355071724));
#449=CARTESIAN_POINT('',(0.0107181228506303,0.0134,-0.0942118213575737));
#450=CARTESIAN_POINT('',(0.0107181228506303,0.0134,-0.0942118213575737));
#451=CARTESIAN_POINT('',(0.0127181228506303,0.0134,-0.0942118213575737));
#452=CARTESIAN_POINT('',(-0.0290959385746849,0.0101867590302711,-0.0942118213575737));
#453=CARTESIAN_POINT('',(-0.0689099678148363,0.0134,-0.0942118213575737));
#454=CARTESIAN_POINT('',(-0.0689099678148363,0.0134,-0.0942118213575737));
#455=CARTESIAN_POINT('',(-0.0669099678148363,0.0134,-0.0942118213575737));
#456=CARTESIAN_POINT('',(-0.0290959385746849,0.0101867590302711,-0.0942118213575737));
#457=CARTESIAN_POINT('',(-0.0646465,0.00537351806054224,-0.203741521892876));
#458=CARTESIAN_POINT('',(-0.0646465,0.00537351806054224,-0.203741521892876));
#459=CARTESIAN_POINT('',(-0.0666465,0.00537351806054224,-0.203741521892876));
#460=CARTESIAN_POINT('',(-0.0646465,0.00537351806054224,-0.149969088214649));
#461=MECHANICAL_DESIGN_GEOMETRIC_PRESENTATION_REPRESENTATION('',(#276),
#462);
#462=(
GEOMETRIC_REPRESENTATION_CONTEXT(3)
GLOBAL_UNCERTAINTY_ASSIGNED_CONTEXT((#463))
GLOBAL_UNIT_ASSIGNED_CONTEXT((#466,#465,#464))
REPRESENTATION_CONTEXT('Part 39','TOP_LEVEL_ASSEMBLY_PART')
);
#463=UNCERTAINTY_MEASURE_WITH_UNIT(LENGTH_MEASURE(5.E-6),#466,
'DISTANCE_ACCURACY_VALUE','Maximum Tolerance applied to model');
#464=(
NAMED_UNIT(*)
SI_UNIT($,.STERADIAN.)
SOLID_ANGLE_UNIT()
);
#465=(
NAMED_UNIT(*)
PLANE_ANGLE_UNIT()
SI_UNIT($,.RADIAN.)
);
#466=(
LENGTH_UNIT()
NAMED_UNIT(*)
SI_UNIT($,.METRE.)
);
#467=PRODUCT_DEFINITION_SHAPE('','',#468);
#468=PRODUCT_DEFINITION('','',#470,#469);
#469=PRODUCT_DEFINITION_CONTEXT('',#476,'design');
#470=PRODUCT_DEFINITION_FORMATION_WITH_SPECIFIED_SOURCE('','',#472,
 .NOT_KNOWN.);
#471=PRODUCT_RELATED_PRODUCT_CATEGORY('','',(#472));
#472=PRODUCT('Part 39','Part 39','Part 39',(#474));
#473=PRODUCT_CATEGORY('','');
#474=PRODUCT_CONTEXT('',#476,'mechanical');
#475=APPLICATION_PROTOCOL_DEFINITION('international standard',
'ap242_managed_model_based_3d_engineering',2011,#476);
#476=APPLICATION_CONTEXT('managed model based 3d engineering');
ENDSEC;
END-ISO-10303-21;
